ich suche liedtext und noten zur national hymne

Dieses Thema im Forum "Musik & Musiker" wurde erstellt von zodiake, 8. Juli 2006 .

  1. Diese Seite verwendet Cookies. Wenn du dich weiterhin auf dieser Seite aufhältst, akzeptierst du unseren Einsatz von Cookies. Weitere Informationen
  1. #1 8. Juli 2006
    ich suche den liedtext und die noten (bzw. gitarren akkorde) liedtext und noten zur national hymne. mfg zodiake
     

  2. Anzeige
  3. #2 8. Juli 2006
  4. #3 8. Juli 2006
    Code:
    E||----------------------|------------------------|-----------------------|
    B||----------------------|------------------------|-----------------------|
    G||----------------------|------------------------|--9----7---------------|
    D||--5------7--9----7----|--10----9----7--4--5----|------------10----9----|
    A||----------------------|------------------------|-----------------------|
    E||----------------------|------------------------|-----------------------|
     
     
     
    ----------------------|----------------------|------------------------|
    ----------------------|----------------------|------------------------|
    -------------7--------|----------------------|------------------------|
    --7----9--5-----------|--5------7--9----7----|--10----9----7--4--5----|
    ----------------------|----------------------|------------------------|
    ----------------------|----------------------|------------------------|
     
     
     
    -----------------------|----------------------|-----------------------|
    -----------------------|----------------------|-----------------------|
    --9----7---------------|-------------7--------|--9------7--7--5--4----|
    ------------10----9----|--7----9--5-----------|-----------------------|
    -----------------------|----------------------|-----------------------|
    -----------------------|----------------------|-----------------------|
     
     
     
    -----------------------|-----------------------------|----------------------||
    -----------------------|-----------------------------|----------------------||
    --7------5--5--4--2----|-----------------------------|----------------------||
    -----------------------|--7----9--10--12--14--10--7--|--5----9--7--5--------||
    -----------------------|-----------------------------|----------------------||
    -----------------------|-----------------------------|----------------------||
    
    Deutsche Nationalhyme in Auszügen aus dem Deutschlandlied von Joseph Haydn.
    Text und Ton: http://www.bund.de/nn_58872/Microsites/Protokoll/Staatliche-Symbole/Nationalhymne/Text-und-Ton-der-Nationalhymne/Text-und-Ton-der-Nationalhymne-knoten.html__nnn=true

    Bitteschön :]
     

  5. Videos zum Thema
Die Seite wird geladen...