Powerchords

Dieses Thema im Forum "Musik & Musiker" wurde erstellt von El Torrro, 23. März 2008 .

Status des Themas:
Es sind keine weiteren Antworten möglich.
  1. Diese Seite verwendet Cookies. Wenn du dich weiterhin auf dieser Seite aufhältst, akzeptierst du unseren Einsatz von Cookies. Weitere Informationen
  1. #1 23. März 2008
    Hey


    Ich hab nen Problem !!!


    Ich will Songs mit Powerchords spieln (bin nen Noob aufm Egitarren Gebiet :p) aber jedesmal wenn ich das versuche hörts sich :poop: an -.-



    Habt ihr iwelche Tipps für Anfänger wie mich ???


    Also wie gesagt hab bis jetz nur Akustik gespielt !!!


    Für jede Hilfe gibts ne Bewertung !!!



    MfG

    El Torrro
     

  2. Anzeige
    Heute: Deals & Sale mit stark reduzierten Angeboten finden.
  3. #2 23. März 2008
    AW: Powerchords

    Was genau ist denn das Problem? Weißt du nicht wie man Powerchords spielt, oder klingen sie mies wenn du sie greifst?

    Also Powerchords spielt man halt generell so:
    ------...
    ------...
    ------...
    -5-4-...
    -5-4-...
    -3-2-...
    Der Akkord entspricht dann dem Bass Ton, also G (3) bzw F# (2)...


    Wenns mies klingt versuch mal die Saiten einzeln zu spielen um zu prüfen ob du die vielleicht einfach unsauber greifst, und drauf zu achten das die hohen drei Saiten nicht mitklingen. Kann wenn du zB 7-9-9------ spielst schnell passieren, weil im siebten Bund ein sogenanntes Flagolet ist. Am besten nur die drei tiefen Saiten mit dem Plek anschlagen ;)
     
  4. #3 23. März 2008
    AW: Powerchords

    powerchords sind generell
    ------...
    ------...
    ------...
    ------...
    -5-4-...
    -3-2-...
    der grundton und die quinte, also ein akkord, der weder moll noch dur ist.
    sie werden meistens
    ------...
    ------...
    ------...
    -5-4-...
    -5-4-...
    -3-2-...
    gespielt, weil sie dann voller klingen (mit oktave)
    wenn du die erste version spielst, ist das ganze leichter zu greifen...
    wenn du die 2. version spielst, solltest du keine barrets spielen, sondern jeden ton mit einem finger greifen.
    aber eigentlich sollten powerchords für leute mit akkustikgitarrenerfahrung nicht schwer sein, besonders wenn derjenige "richtige" akkorde spielen kann. wenn es dir leichter fällt kannst du sonst auch den akkord spielen (anstatt g-power g-dur)das klingt meistens sowieso besser (powerchords werden oft im rock benutzt, aber oft auch, um den akkord zu vereinfachen.)
    wenn du schon barrets gespielt hast (hier zb. f-dur)
    -1-------
    -1-------
    -2--------
    -3--------
    -3------
    -1-------
    sollten dir powerchords erst recht nicht schwer fallen, weil sie im grunde vereinfachte barrets sind...
    sonst hilft eigentlich imma... üben
     
  5. #4 23. März 2008
    AW: Powerchords

    Soll ich denn generell alle Saiten anspielen oder immer nur die "makierten" ???


    Bw's sind schonmal raus ;)
     
  6. #5 23. März 2008
    AW: Powerchords

    nur die makierten...
     
  7. #6 23. März 2008
    AW: Powerchords

    Aso !!!

    Dann ist erstmal alles geklärt ^^


    Habt ihr vll Vorschläge mit welchen Songs ich anfangen sollte ???

    Ich habe bis jetz nurn paar von Greenday und nen paar anderen versucht, dort komm ich aber nicht so gut mit dem Timing zurecht (z.B bei American :crazy:) !!!
     
  8. #7 23. März 2008
    AW: Powerchords

    Ich hab die powerchords damals an Dirty Magic gelernt. von the offspring.

    hab mir dieses video zur hilfe genommen bzgl timing und anschlag etc. nicht wundern, die audio spur ist etwas versetzt, aber das legt sich schnell ab dem ersten drittel des videos

    ich hab immer den mainriff gespielt (das was der mit der brille und den grauen haaren spielt. glaub er heißt noodles btw) und später auch den refrain.

    auf dem ersten blick siehts vllt schwer aus aber es ist eigentlich easy.

    falls du das spielen willst hab ich hier mal die tabs für dich. hab sie mal selber aufgeschrieben da im internet viel mist für diesen song steht. du weißt ja - unten die dickste, oben die dünnste saite.

    mainriff:
    gleich 2 mal damit du siehst wie der übergang abläuft
    Code:
    E|------------------------------------------------------------------------------------------------------------------------------------------------------
    B|------------------------------------------------------------------------------------------------------------------------------------------------------
    G|------------------------------------------------------------------------------------------------------------------------------------------------------
    D|------------------------------------------------------------------------------------------------------------------------------------------------------
    A|---------------7---------7----------10---------9---------2---3--2---2---3--2-------------7---------7----------10---------9---------2---3--2---2---3--2
    E|--0--3--5--5------5-5-------5--8-8-----8---7-7----7----0--0-------0---0--------3--5--5------5-5-------5--8-8-----8---7-7----7----0--0-------0---0-----
    
    chorus:
    Code:
    E|----------------------------------------------------------------------------------------------
    B|----------------------------------------------------------------------------------------------
    G|--7/9-9-9-9-9--7-9-9-9-9-9---------------7-7-7-7-7-7---------------5-5-5-5-5-5--4-4-4-4-4-4---
    D|--7/9-9-9-9-9--7-9-9-9-9-9--5-5-5-5-5-5--7-7-7-7-7-7--7-7-7-7-7-7--5-5-5-5-5-5--4-4-4-4-4-4--2
    A|--5/7-7-7-7-7--5-7-7-7-7-7--5-5-5-5-5-5--5-5-5-5-5-5--7-7-7-7-7-7--3-3-3-3-3-3--2-2-2-2-2-2--2
    E|----------------------------3-3-3-3-3-3---------------5-5-5-5-5-5----------------------------0
    
    MFG. Zwicki
     
  9. #8 23. März 2008
    AW: Powerchords

    sehr einfach sind song 2 von blur,
    -------------
    -------------
    -------------
    -----------------
    ---------------------------------5--5--7--9----9--9--9
    ----7--7--7--7--5--5--5--5---------------------------

    das sind die krundtöne, glaub ich
    und drain you von nirvana...
     
  10. #9 24. März 2008
    AW: Powerchords

    Cool !!!

    Danke euch allen !!!

    Bewertungen sind alle raus, nochmal großes THX an euch !!!


    MfG

    El Torrro
     

  11. Videos zum Thema